  0
SECTION
  2
HEADER
  9
$ACADVER
  1
AC1009
  9
$INSBASE
 10
0.0
 20
0.0
 30
0.0
  9
$EXTMIN
 10
0.0
 20
0.0
 30
0.0
  9
$EXTMAX
 10
497.454
 20
528.0
 30
0.0
  9
$LIMMIN
 10
0.0
 20
0.0
  9
$LIMMAX
 10
816.0
 20
528.0
  9
$ORTHOMODE
 70
     1
  9
$REGENMODE
 70
     0
  9
$FILLMODE
 70
     1
  9
$QTEXTMODE
 70
     0
  9
$MIRRTEXT
 70
     0
  9
$DRAGMODE
 70
     2
  9
$LTSCALE
 40
24.0
  9
$OSMODE
 70
     0
  9
$ATTMODE
 70
     1
  9
$TEXTSIZE
 40
4.5
  9
$TRACEWID
 40
0.05
  9
$TEXTSTYLE
  7
STANDARD
  9
$CLAYER
  8
0
  9
$CELTYPE
  6
BYLAYER
  9
$CECOLOR
 62
   256
  9
$DIMSCALE
 40
24.0
  9
$DIMASZ
 40
0.1875
  9
$DIMEXO
 40
0.125
  9
$DIMDLI
 40
0.5
  9
$DIMRND
 40
0.0
  9
$DIMDLE
 40
0.0
  9
$DIMEXE
 40
0.18
  9
$DIMTP
 40
0.0
  9
$DIMTM
 40
0.0
  9
$DIMTXT
 40
0.18
  9
$DIMCEN
 40
0.09
  9
$DIMTSZ
 40
0.0
  9
$DIMTOL
 70
     0
  9
$DIMLIM
 70
     0
  9
$DIMTIH
 70
     0
  9
$DIMTOH
 70
     0
  9
$DIMSE1
 70
     0
  9
$DIMSE2
 70
     0
  9
$DIMTAD
 70
     1
  9
$DIMZIN
 70
     3
  9
$DIMBLK
  1

  9
$DIMASO
 70
     1
  9
$DIMSHO
 70
     0
  9
$DIMPOST
  1

  9
$DIMAPOST
  1

  9
$DIMALT
 70
     0
  9
$DIMALTD
 70
     2
  9
$DIMALTF
 40
25.4
  9
$DIMLFAC
 40
1.0
  9
$DIMTOFL
 70
     1
  9
$DIMTVP
 40
0.0
  9
$DIMTIX
 70
     1
  9
$DIMSOXD
 70
     0
  9
$DIMSAH
 70
     0
  9
$DIMBLK1
  1

  9
$DIMBLK2
  1

  9
$DIMSTYLE
  2
*UNNAMED
  9
$DIMCLRD
 70
     0
  9
$DIMCLRE
 70
     0
  9
$DIMCLRT
 70
     0
  9
$DIMTFAC
 40
1.0
  9
$DIMGAP
 40
0.09
  9
$LUNITS
 70
     4
  9
$LUPREC
 70
     4
  9
$AXISMODE
 70
     0
  9
$AXISUNIT
 10
0.0
 20
0.0
  9
$SKETCHINC
 40
0.1
  9
$FILLETRAD
 40
0.0
  9
$AUNITS
 70
     0
  9
$AUPREC
 70
     0
  9
$MENU
  1
arch
  9
$ELEVATION
 40
0.0
  9
$PELEVATION
 40
0.0
  9
$THICKNESS
 40
0.0
  9
$LIMCHECK
 70
     0
  9
$BLIPMODE
 70
     0
  9
$CHAMFERA
 40
0.0
  9
$CHAMFERB
 40
0.0
  9
$SKPOLY
 70
     0
  9
$TDCREATE
 40
2449003.38536261581
  9
$TDUPDATE
 40
2449003.40924444422
  9
$TDINDWG
 40
0.018620023148
  9
$TDUSRTIMER
 40
0.018620023148
  9
$USRTIMER
 70
     1
  9
$ANGBASE
 50
0.0
  9
$ANGDIR
 70
     0
  9
$PDMODE
 70
     0
  9
$PDSIZE
 40
0.0
  9
$PLINEWID
 40
0.0
  9
$COORDS
 70
     2
  9
$SPLFRAME
 70
     0
  9
$SPLINETYPE
 70
     6
  9
$SPLINESEGS
 70
     8
  9
$ATTDIA
 70
     1
  9
$ATTREQ
 70
     1
  9
$HANDLING
 70
     0
  9
$HANDSEED
  5
0
  9
$SURFTAB1
 70
     6
  9
$SURFTAB2
 70
     6
  9
$SURFTYPE
 70
     6
  9
$SURFU
 70
     6
  9
$SURFV
 70
     6
  9
$UCSNAME
  2

  9
$UCSORG
 10
0.0
 20
0.0
 30
0.0
  9
$UCSXDIR
 10
1.0
 20
0.0
 30
0.0
  9
$UCSYDIR
 10
0.0
 20
1.0
 30
0.0
  9
$PUCSNAME
  2

  9
$PUCSORG
 10
0.0
 20
0.0
 30
0.0
  9
$PUCSXDIR
 10
1.0
 20
0.0
 30
0.0
  9
$PUCSYDIR
 10
0.0
 20
1.0
 30
0.0
  9
$USERI1
 70
    48
  9
$USERI2
 70
     0
  9
$USERI3
 70
     0
  9
$USERI4
 70
     0
  9
$USERI5
 70
     0
  9
$USERR1
 40
12.0
  9
$USERR2
 40
4.0
  9
$USERR3
 40
24.0
  9
$USERR4
 40
8.0
  9
$USERR5
 40
0.0
  9
$WORLDVIEW
 70
     1
  9
$SHADEDGE
 70
     3
  9
$SHADEDIF
 70
    70
  9
$TILEMODE
 70
     1
  9
$MAXACTVP
 70
    16
  9
$PINSBASE
 10
0.0
 20
0.0
 30
0.0
  9
$PLIMCHECK
 70
     0
  9
$PEXTMIN
 10
1.000000E+20
 20
1.000000E+20
 30
1.000000E+20
  9
$PEXTMAX
 10
-1.000000E+20
 20
-1.000000E+20
 30
-1.000000E+20
  9
$PLIMMIN
 10
0.0
 20
0.0
  9
$PLIMMAX
 10
12.0
 20
9.0
  9
$UNITMODE
 70
     1
  9
$VISRETAIN
 70
     0
  0
ENDSEC
  0
SECTION
  2
TABLES
  0
TABLE
  2
VPORT
 70
     2
  0
VPORT
  2
*ACTIVE
 70
     0
 10
0.0
 20
0.0
 11
1.0
 21
1.0
 12
248.732515
 22
266.389506
 13
0.0
 23
0.0
 14
6.0
 24
6.0
 15
6.0
 25
6.0
 16
0.0
 26
0.0
 36
1.0
 17
0.0
 27
0.0
 37
0.0
 40
532.744908
 41
0.933777
 42
50.0
 43
0.0
 44
0.0
 50
0.0
 51
0.0
 71
     0
 72
   100
 73
     1
 74
     1
 75
     0
 76
     0
 77
     0
 78
     0
  0
ENDTAB
  0
TABLE
  2
LTYPE
 70
     1
  0
LTYPE
  2
CONTINUOUS
 70
    64
  3
Solid line
 72
    65
 73
     0
 40
0.0
  0
ENDTAB
  0
TABLE
  2
LAYER
 70
     7
  0
LAYER
  2
0
 70
    64
 62
     7
  6
CONTINUOUS
  0
LAYER
  2
WALL
 70
     0
 62
     7
  6
CONTINUOUS
  0
LAYER
  2
GLAZING
 70
     0
 62
     4
  6
CONTINUOUS
  0
LAYER
  2
DOOR
 70
     0
 62
     2
  6
CONTINUOUS
  0
LAYER
  2
MISC
 70
     0
 62
     2
  6
CONTINUOUS
  0
LAYER
  2
PLUMBING
 70
     0
 62
     3
  6
CONTINUOUS
  0
LAYER
  2
_APT11
 70
    65
 62
    -7
  6
CONTINUOUS
  0
ENDTAB
  0
TABLE
  2
STYLE
 70
     1
  0
STYLE
  2
STANDARD
 70
    64
 40
0.0
 41
1.0
 50
0.0
 71
     0
 42
4.5
  3
txt
  4

  0
ENDTAB
  0
TABLE
  2
VIEW
 70
     0
  0
ENDTAB
  0
TABLE
  2
UCS
 70
     0
  0
ENDTAB
  0
TABLE
  2
APPID
 70
     2
  0
APPID
  2
ACAD
 70
    64
  0
APPID
  2
SOFTSOURCE
 70
     0
  0
ENDTAB
  0
TABLE
  2
DIMSTYLE
 70
     0
  0
ENDTAB
  0
ENDSEC
  0
SECTION
  2
BLOCKS
  0
BLOCK
  8
0
  2
_APT11
 70
    66
 10
0.0
 20
0.0
 30
0.0
  3
_APT11
  0
ATTDEF
  8
_APT11
 10
1.0
 20
51.0
 30
0.0
 40
1.0
  1
WALL
  3
Wall
  2
C_WALL
 70
     1
  0
ATTDEF
  8
_APT11
 10
1.0
 20
49.333333
 30
0.0
 40
1.0
  1
DOOR
  3
Door
  2
C_DOOR
 70
     1
  0
ATTDEF
  8
_APT11
 10
1.0
 20
47.666667
 30
0.0
 40
1.0
  1
SILL
  3
Window
  2
C_WIND
 70
     1
  0
ATTDEF
  8
_APT11
 10
1.0
 20
46.274144
 30
0.0
 40
1.0
  1
HEADER
  3
Header
  2
C_HEAD
 70
     1
  0
ATTDEF
  8
_APT11
 10
1.0
 20
45.0
 30
0.0
 40
1.0
  1
JAMB
  3
Jamb
  2
C_JAMB
 70
     1
  0
ATTDEF
  8
_APT11
 10
1.0
 20
43.333333
 30
0.0
 40
1.0
  1
GLAZING
  3
Glazing
  2
C_GLAZ
 70
     1
  0
ATTDEF
  8
_APT11
 10
1.0
 20
41.666667
 30
0.0
 40
1.0
  1
PLUMBING
  3
Plumbing
  2
C_PLUM
 70
     1
  0
ATTDEF
  8
_APT11
 10
1.0
 20
40.0
 30
0.0
 40
1.0
  1
ELECTRIC
  3
Electric
  2
C_ELEC
 70
     1
  0
ATTDEF
  8
_APT11
 10
1.0
 20
38.333333
 30
0.0
 40
1.0
  1
FRAME
  3
Frame
  2
C_FRAM
 70
     1
  0
ATTDEF
  8
_APT11
 10
1.0
 20
36.666667
 30
0.0
 40
1.0
  1
FOUNDATION
  3
Foundation
  2
C_FOUN
 70
     1
  0
ATTDEF
  8
_APT11
 10
1.0
 20
35.0
 30
0.0
 40
1.0
  1
CEILING
  3
Ceiling
  2
C_CEIL
 70
     1
  0
ATTDEF
  8
_APT11
 10
1.0
 20
33.333333
 30
0.0
 40
1.0
  1
MISC
  3
Misc
  2
C_MISC
 70
     1
  0
ATTDEF
  8
_APT11
 10
1.0
 20
31.666667
 30
0.0
 40
1.0
  1
No
  3
Curve Headers
  2
C_CVHD
 70
     1
  0
ATTDEF
  8
_APT11
 10
1.0
 20
30.0
 30
0.0
 40
1.0
  1
No
  3
Case On
  2
C_CAON
 70
     1
  0
ATTDEF
  8
_APT11
 10
1.0
 20
28.333333
 30
0.0
 40
1.0
  1
2
  3
Case Thickness
  2
C_CATK
 70
     1
  0
ATTDEF
  8
_APT11
 10
1.0
 20
26.666667
 30
0.0
 40
1.0
  1
4
  3
Case Width
  2
C_CAWD
 70
     1
  0
ATTDEF
  8
_APT11
 10
1.0
 20
25.0
 30
0.0
 40
1.0
  1
0
  3
Door Thickness
  2
C_DRTK
 70
     1
  0
ATTDEF
  8
_APT11
 10
1.0
 20
23.333333
 30
0.0
 40
1.0
  1
0
  3
Window Thickness
  2
C_WITK
 70
     1
  0
ATTDEF
  8
_APT11
 10
1.0
 20
21.666667
 30
0.0
 40
1.0
  1
90
  3
Door Swing
  2
C_DRSW
 70
     1
  0
ATTDEF
  8
_APT11
 10
1.0
 20
20.0
 30
0.0
 40
1.0
  1
18
  3
Offset
  2
C_OFFS
 70
     1
  0
ATTDEF
  8
_APT11
 10
1.0
 20
18.333333
 30
0.0
 40
1.0
  1
80
  3
Head Height
  2
C_HHGT
 70
     1
  0
ATTDEF
  8
_APT11
 10
1.0
 20
16.666667
 30
0.0
 40
1.0
  1
36
  3
Sill Height
  2
C_SHGT
 70
     1
  0
ATTDEF
  8
_APT11
 10
1.0
 20
15.0
 30
0.0
 40
1.0
  1
36
  3
Break Width
  2
C_BRAK
 70
     1
  0
ATTDEF
  8
_APT11
 10
1.0
 20
13.333333
 30
0.0
 40
1.0
  1
96
  3
Wall Height
  2
C_THIK
 70
     1
  0
ATTDEF
  8
_APT11
 10
1.0
 20
11.666667
 30
0.0
 40
1.0
  1
6.0
  3
Wall Width
  2
C_WIDE
 70
     1
  0
ATTDEF
  8
_APT11
 10
1.0
 20
10.0
 30
0.0
 40
1.0
  1
48
  3
Drawing Scale
  2
C_SCAL
 70
     1
  0
ATTDEF
  8
_APT11
 10
1.0
 20
8.333333
 30
0.0
 40
1.0
  1
24
  3
Max Wall Width
  2
C_MTHK
 70
     1
  0
ATTDEF
  8
_APT11
 10
1.0
 20
6.666667
 30
0.0
 40
1.0
  1
0
  3
Max Lisp
  2
C_MXLP
 70
     1
  0
ATTDEF
  8
_APT11
 10
1.0
 20
5.0
 30
0.0
 40
1.0
  1
0
  3
Aux1
  2
C_AUX1
 70
     1
  0
ATTDEF
  8
_APT11
 10
1.0
 20
3.333333
 30
0.0
 40
1.0
  1
0
  3
Aux2
  2
C_AUX2
 70
     1
  0
ATTDEF
  8
_APT11
 10
1.0
 20
1.666667
 30
0.0
 40
1.0
  1
0
  3
Aux3
  2
C_AUX3
 70
     1
  0
ATTDEF
  8
_APT11
 10
1.0
 20
0.0
 30
0.0
 40
1.0
  1
0
  3
Aux4
  2
C_AUX4
 70
     1
  0
ENDBLK
  8
0
  0
BLOCK
  8
0
  2
BORDER
 70
    64
 10
0.0
 20
0.0
 30
0.0
  3
BORDER
  0
LINE
  8
0
 10
0.0
 20
0.0
 30
0.0
 11
1.0
 21
0.0
 31
0.0
  0
LINE
  8
0
 10
1.0
 20
0.0
 30
0.0
 11
1.0
 21
1.0
 31
0.0
  0
LINE
  8
0
 10
1.0
 20
1.0
 30
0.0
 11
0.0
 21
1.0
 31
0.0
  0
LINE
  8
0
 10
0.0
 20
1.0
 30
0.0
 11
0.0
 21
0.0
 31
0.0
  0
ENDBLK
  8
0
  0
ENDSEC
  0
SECTION
  2
ENTITIES
  0
INSERT
  8
0
 66
     1
  2
_APT11
 10
0.0
 20
0.0
 30
0.0
  0
ATTRIB
  8
_APT11
 10
1.0
 20
51.0
 30
0.0
 40
1.0
  1
WALL
  2
C_WALL
 70
     1
  0
ATTRIB
  8
_APT11
 10
1.0
 20
49.333333
 30
0.0
 40
1.0
  1
DOOR
  2
C_DOOR
 70
     1
  0
ATTRIB
  8
_APT11
 10
1.0
 20
47.666667
 30
0.0
 40
1.0
  1
SILL
  2
C_WIND
 70
     1
  0
ATTRIB
  8
_APT11
 10
1.0
 20
46.274144
 30
0.0
 40
1.0
  1
HEADER
  2
C_HEAD
 70
     1
  0
ATTRIB
  8
_APT11
 10
1.0
 20
45.0
 30
0.0
 40
1.0
  1
JAMB
  2
C_JAMB
 70
     1
  0
ATTRIB
  8
_APT11
 10
1.0
 20
43.333333
 30
0.0
 40
1.0
  1
GLAZING
  2
C_GLAZ
 70
     1
  0
ATTRIB
  8
_APT11
 10
1.0
 20
41.666667
 30
0.0
 40
1.0
  1
PLUMBING
  2
C_PLUM
 70
     1
  0
ATTRIB
  8
_APT11
 10
1.0
 20
40.0
 30
0.0
 40
1.0
  1
ELECTRIC
  2
C_ELEC
 70
     1
  0
ATTRIB
  8
_APT11
 10
1.0
 20
38.333333
 30
0.0
 40
1.0
  1
FRAME
  2
C_FRAM
 70
     1
  0
ATTRIB
  8
_APT11
 10
1.0
 20
36.666667
 30
0.0
 40
1.0
  1
FOUNDATION
  2
C_FOUN
 70
     1
  0
ATTRIB
  8
_APT11
 10
1.0
 20
35.0
 30
0.0
 40
1.0
  1
CEILING
  2
C_CEIL
 70
     1
  0
ATTRIB
  8
_APT11
 10
1.0
 20
33.333333
 30
0.0
 40
1.0
  1
MISC
  2
C_MISC
 70
     1
  0
ATTRIB
  8
_APT11
 10
1.0
 20
31.666667
 30
0.0
 40
1.0
  1
No
  2
C_CVHD
 70
     1
  0
ATTRIB
  8
_APT11
 10
1.0
 20
30.0
 30
0.0
 40
1.0
  1
No
  2
C_CAON
 70
     1
  0
ATTRIB
  8
_APT11
 10
1.0
 20
28.333333
 30
0.0
 40
1.0
  1
2
  2
C_CATK
 70
     1
  0
ATTRIB
  8
_APT11
 10
1.0
 20
26.666667
 30
0.0
 40
1.0
  1
4
  2
C_CAWD
 70
     1
  0
ATTRIB
  8
_APT11
 10
1.0
 20
25.0
 30
0.0
 40
1.0
  1
0
  2
C_DRTK
 70
     1
  0
ATTRIB
  8
_APT11
 10
1.0
 20
23.333333
 30
0.0
 40
1.0
  1
0
  2
C_WITK
 70
     1
  0
ATTRIB
  8
_APT11
 10
1.0
 20
21.666667
 30
0.0
 40
1.0
  1
90
  2
C_DRSW
 70
     1
  0
ATTRIB
  8
_APT11
 10
1.0
 20
20.0
 30
0.0
 40
1.0
  1
18
  2
C_OFFS
 70
     1
  0
ATTRIB
  8
_APT11
 10
1.0
 20
18.333333
 30
0.0
 40
1.0
  1
80
  2
C_HHGT
 70
     1
  0
ATTRIB
  8
_APT11
 10
1.0
 20
16.666667
 30
0.0
 40
1.0
  1
36
  2
C_SHGT
 70
     1
  0
ATTRIB
  8
_APT11
 10
1.0
 20
15.0
 30
0.0
 40
1.0
  1
36
  2
C_BRAK
 70
     1
  0
ATTRIB
  8
_APT11
 10
1.0
 20
13.333333
 30
0.0
 40
1.0
  1
96
  2
C_THIK
 70
     1
  0
ATTRIB
  8
_APT11
 10
1.0
 20
11.666667
 30
0.0
 40
1.0
  1
6.0
  2
C_WIDE
 70
     1
  0
ATTRIB
  8
_APT11
 10
1.0
 20
10.0
 30
0.0
 40
1.0
  1
48.00000000
  2
C_SCAL
 70
     1
  0
ATTRIB
  8
_APT11
 10
1.0
 20
8.333333
 30
0.0
 40
1.0
  1
24
  2
C_MTHK
 70
     1
  0
ATTRIB
  8
_APT11
 10
1.0
 20
6.666667
 30
0.0
 40
1.0
  1
400
  2
C_MXLP
 70
     1
  0
ATTRIB
  8
_APT11
 10
1.0
 20
5.0
 30
0.0
 40
1.0
  1
0
  2
C_AUX1
 70
     1
  0
ATTRIB
  8
_APT11
 10
1.0
 20
3.333333
 30
0.0
 40
1.0
  1
0
  2
C_AUX2
 70
     1
  0
ATTRIB
  8
_APT11
 10
1.0
 20
1.666667
 30
0.0
 40
1.0
  1
0
  2
C_AUX3
 70
     1
  0
ATTRIB
  8
_APT11
 10
1.0
 20
0.0
 30
0.0
 40
1.0
  1
1
  2
C_AUX4
 70
     1
  0
SEQEND
  8
0
 62
     0
  0
LINE
  8
0
 10
0.0
 20
0.0
 30
0.0
 11
497.454
 21
0.0
 31
0.0
  0
LINE
  8
0
 10
497.454
 20
528.0
 30
0.0
 11
0.0
 21
528.0
 31
0.0
  0
LINE
  8
0
 10
0.0
 20
528.0
 30
0.0
 11
0.0
 21
0.0
 31
0.0
  0
LINE
  8
0
 10
42.0
 20
474.0
 30
0.0
 11
90.0
 21
474.0
 31
0.0
  0
LINE
  8
0
 10
66.0
 20
478.0
 30
0.0
 11
66.0
 21
470.0
 31
0.0
  0
LINE
  8
0
 10
68.0
 20
478.0
 30
0.0
 11
68.0
 21
470.0
 31
0.0
  0
TEXT
  8
0
 10
44.864311
 20
453.778999
 30
0.0
 40
4.5
  1
FLANGED CONNECTION
  0
LINE
  8
0
 10
42.0
 20
432.284542
 30
0.0
 11
90.0
 21
432.284542
 31
0.0
  0
LINE
  8
0
 10
68.0
 20
436.284542
 30
0.0
 11
68.0
 21
428.284542
 31
0.0
  0
TEXT
  8
0
 10
42.697674
 20
411.204371
 30
0.0
 40
4.5
  1
SCREWED CONNECTION
  0
LINE
  8
0
 10
42.0
 20
383.988205
 30
0.0
 11
90.0
 21
383.988205
 31
0.0
  0
ARC
  8
0
 10
59.980956
 20
383.988205
 30
0.0
 40
4.0
 50
90.0
 51
270.0
  0
ARC
  8
0
 10
67.875481
 20
383.988205
 30
0.0
 40
2.0
 50
90.0
 51
270.0
  0
TEXT
  8
0
 10
42.373924
 20
367.478089
 30
0.0
 40
4.5
  1
BELL AND SPIGOT
  0
TEXT
  8
0
 10
42.373924
 20
359.978089
 30
0.0
 40
4.5
  1
JOINT
  0
LINE
  8
0
 10
42.0
 20
336.423077
 30
0.0
 11
90.0
 21
336.423077
 31
0.0
  0
LINE
  8
0
 10
59.980956
 20
340.423077
 30
0.0
 11
63.980956
 21
332.423077
 31
0.0
  0
LINE
  8
0
 10
63.980956
 20
340.423077
 30
0.0
 11
59.980956
 21
332.423077
 31
0.0
  0
LINE
  8
0
 10
70.829518
 20
340.423077
 30
0.0
 11
66.829518
 21
332.423077
 31
0.0
  0
LINE
  8
0
 10
66.829518
 20
340.423077
 30
0.0
 11
70.829518
 21
332.423077
 31
0.0
  0
TEXT
  8
0
 10
41.925655
 20
322.216268
 30
0.0
 40
4.5
  1
WELD CONNECTION
  0
LINE
  8
0
 10
42.0
 20
296.992646
 30
0.0
 11
90.0
 21
296.992646
 31
0.0
  0
CIRCLE
  8
0
 10
59.980956
 20
296.992646
 30
0.0
 40
3.860099
  0
CIRCLE
  8
0
 10
67.875481
 20
296.992646
 30
0.0
 40
1.842886
  0
TEXT
  8
0
 10
37.990844
 20
281.433101
 30
0.0
 40
4.5
  1
SOLDER CONNECTION
  0
LINE
  8
0
 10
42.0
 20
233.596849
 30
0.0
 11
57.530855
 21
233.596849
 31
0.0
  0
LINE
  8
0
 10
53.530855
 20
237.596849
 30
0.0
 11
53.530855
 21
229.596849
 31
0.0
  0
LINE
  8
0
 10
75.720198
 20
229.596849
 30
0.0
 11
75.720198
 21
237.596849
 31
0.0
  0
LINE
  8
0
 10
53.530855
 20
237.596849
 30
0.0
 11
75.720198
 21
237.596849
 31
0.0
  0
LINE
  8
0
 10
53.530855
 20
229.596849
 30
0.0
 11
75.720198
 21
229.596849
 31
0.0
  0
LINE
  8
0
 10
77.720198
 20
230.596849
 30
0.0
 11
77.720198
 21
236.596849
 31
0.0
  0
LINE
  8
0
 10
51.530855
 20
236.596849
 30
0.0
 11
51.530855
 21
230.596849
 31
0.0
  0
LINE
  8
0
 10
71.720198
 20
233.596849
 30
0.0
 11
90.0
 21
233.596849
 31
0.0
  0
TEXT
  8
0
 10
82.220106
 20
236.280962
 30
0.0
 40
4.5
  1
EJ
  0
TEXT
  8
0
 10
38.140267
 20
216.697738
 30
0.0
 40
4.5
  1
EXPANSION JOINT
  0
LINE
  8
0
 10
42.0
 20
184.934908
 30
0.0
 11
90.0
 21
184.934908
 31
0.0
  0
LINE
  8
0
 10
66.0
 20
188.934908
 30
0.0
 11
66.0
 21
180.934908
 31
0.0
  0
LINE
  8
0
 10
68.0
 20
187.934908
 30
0.0
 11
68.0
 21
181.934908
 31
0.0
  0
LINE
  8
0
 10
64.0
 20
187.934908
 30
0.0
 11
64.0
 21
181.934908
 31
0.0
  0
TEXT
  8
0
 10
55.697491
 20
168.936638
 30
0.0
 40
4.5
  1
UNION
  0
LINE
  8
0
 10
42.0
 20
141.336587
 30
0.0
 11
90.0
 21
141.336587
 31
0.0
  0
LINE
  8
0
 10
58.0
 20
145.336587
 30
0.0
 11
74.0
 21
145.336587
 31
0.0
  0
LINE
  8
0
 10
58.0
 20
137.336587
 30
0.0
 11
74.0
 21
137.336587
 31
0.0
  0
TEXT
  8
0
 10
42.02527
 20
112.944329
 30
0.0
 40
4.5
  1
ALIIGNMENT GUIDE
  0
LINE
  8
0
 10
42.0
 20
79.732251
 30
0.0
 11
62.0
 21
79.732251
 31
0.0
  0
LINE
  8
0
 10
62.0
 20
75.732251
 30
0.0
 11
62.0
 21
83.732251
 31
0.0
  0
LINE
  8
0
 10
70.0
 20
76.732251
 30
0.0
 11
70.0
 21
82.732251
 31
0.0
  0
LINE
  8
0
 10
62.0
 20
75.732251
 30
0.0
 11
70.0
 21
76.732251
 31
0.0
  0
LINE
  8
0
 10
70.0
 20
82.732251
 30
0.0
 11
62.0
 21
83.732251
 31
0.0
  0
LINE
  8
0
 10
70.0
 20
79.732251
 30
0.0
 11
90.0
 21
79.732251
 31
0.0
  0
TEXT
  8
0
 10
44.839407
 20
56.878899
 30
0.0
 40
4.5
  1
REDUCER
  0
LINE
  8
0
 10
227.245809
 20
474.0
 30
0.0
 11
249.550675
 21
474.0
 31
0.0
  0
LINE
  8
0
 10
249.245809
 20
478.0
 30
0.0
 11
255.245809
 21
478.0
 31
0.0
  0
LINE
  8
0
 10
255.245809
 20
478.0
 30
0.0
 11
255.245809
 21
470.0
 31
0.0
  0
LINE
  8
0
 10
249.245809
 20
470.0
 30
0.0
 11
255.245809
 21
470.0
 31
0.0
  0
CIRCLE
  8
0
 10
251.740221
 20
474.0
 30
0.0
 40
2.189546
  0
LINE
  8
0
 10
255.245809
 20
474.0
 30
0.0
 11
275.245809
 21
474.0
 31
0.0
  0
TEXT
  8
0
 10
224.167212
 20
451.930387
 30
0.0
 40
4.5
  1
BALL JOINT
  0
LINE
  8
0
 10
228.467881
 20
424.229874
 30
0.0
 11
276.467881
 21
424.229874
 31
0.0
  0
LINE
  8
0
 10
248.467881
 20
420.229874
 30
0.0
 11
256.467881
 21
428.229874
 31
0.0
  0
LINE
  8
0
 10
256.467881
 20
420.229874
 30
0.0
 11
248.467881
 21
428.229874
 31
0.0
  0
TEXT
  8
0
 10
223.887154
 20
404.106967
 30
0.0
 40
4.5
  1
PIPE ANCHOR
  0
LINE
  8
0
 10
228.467881
 20
377.34087
 30
0.0
 11
248.467881
 21
377.34087
 31
0.0
  0
LINE
  8
0
 10
248.467881
 20
377.34087
 30
0.0
 11
248.467881
 21
381.34087
 31
0.0
  0
LINE
  8
0
 10
248.467881
 20
381.34087
 30
0.0
 11
256.467881
 21
381.34087
 31
0.0
  0
LINE
  8
0
 10
256.467881
 20
381.34087
 30
0.0
 11
256.467881
 21
377.34087
 31
0.0
  0
LINE
  8
0
 10
256.467881
 20
377.34087
 30
0.0
 11
276.467881
 21
377.34087
 31
0.0
  0
TEXT
  8
0
 10
224.218132
 20
355.90978
 30
0.0
 40
4.5
  1
EXPANSION LOOP
  0
LINE
  8
0
 10
260.337777
 20
309.243554
 30
0.0
 11
280.337777
 21
309.243554
 31
0.0
  0
LINE
  8
0
 10
260.337777
 20
312.243554
 30
0.0
 11
252.337777
 21
313.243554
 31
0.0
  0
LINE
  8
0
 10
252.337777
 20
305.243554
 30
0.0
 11
260.337777
 21
306.243554
 31
0.0
  0
LINE
  8
0
 10
260.337777
 20
306.243554
 30
0.0
 11
260.337777
 21
312.243554
 31
0.0
  0
LINE
  8
0
 10
252.337777
 20
305.243554
 30
0.0
 11
252.337777
 21
313.243554
 31
0.0
  0
LINE
  8
0
 10
232.337777
 20
309.243554
 30
0.0
 11
250.337777
 21
309.243554
 31
0.0
  0
LINE
  8
0
 10
250.337777
 20
305.243554
 30
0.0
 11
250.337777
 21
313.243554
 31
0.0
  0
TEXT
  8
0
 10
226.17854
 20
287.716087
 30
0.0
 40
4.5
  1
REDUCING FLANGE
  0
LINE
  8
0
 10
227.245809
 20
243.292644
 30
0.0
 11
275.245809
 21
243.292644
 31
0.0
  0
LINE
  8
0
 10
249.245809
 20
252.841679
 30
0.0
 11
255.245809
 21
252.841679
 31
0.0
  0
LINE
  8
0
 10
255.245809
 20
258.841679
 30
0.0
 11
255.245809
 21
252.841679
 31
0.0
  0
LINE
  8
0
 10
249.245809
 20
258.841679
 30
0.0
 11
255.245809
 21
258.841679
 31
0.0
  0
LINE
  8
0
 10
249.245809
 20
252.841679
 30
0.0
 11
249.245809
 21
258.841679
 31
0.0
  0
LINE
  8
0
 10
252.245809
 20
252.841679
 30
0.0
 11
252.245809
 21
243.292644
 31
0.0
  0
TEXT
  8
0
 10
226.509518
 20
225.072826
 30
0.0
 40
4.5
  1
AIR VENT, AUTOMATIC
  0
TEXT
  8
0
 10
256.984948
 20
253.603914
 30
0.0
 40
4.5
  1
AV
  0
TEXT
  8
0
 10
226.509518
 20
159.92533
 30
0.0
 40
4.5
  1
AIR VENT, MANUAL
  0
LINE
  8
0
 10
252.245809
 20
206.664827
 30
0.0
 11
252.245809
 21
192.194183
 31
0.0
  0
LINE
  8
0
 10
255.245809
 20
193.694183
 30
0.0
 11
255.245809
 21
187.694183
 31
0.0
  0
LINE
  8
0
 10
227.245809
 20
178.145148
 30
0.0
 11
275.245809
 21
178.145148
 31
0.0
  0
LINE
  8
0
 10
255.245809
 20
193.694183
 30
0.0
 11
249.245809
 21
190.694183
 31
0.0
  0
LINE
  8
0
 10
249.245809
 20
190.694183
 30
0.0
 11
255.245809
 21
187.694183
 31
0.0
  0
LINE
  8
0
 10
252.245809
 20
189.194183
 30
0.0
 11
252.245809
 21
178.145148
 31
0.0
  0
LINE
  8
0
 10
255.245809
 20
190.694183
 30
0.0
 11
261.669559
 21
190.694183
 31
0.0
  0
LINE
  8
0
 10
261.669559
 20
192.694183
 30
0.0
 11
261.669559
 21
188.694183
 31
0.0
  0
LINE
  8
0
 10
245.938107
 20
102.358731
 30
0.0
 11
245.938107
 21
110.358731
 31
0.0
  0
LINE
  8
0
 10
243.938107
 20
110.358731
 30
0.0
 11
245.938107
 21
110.358731
 31
0.0
  0
LINE
  8
0
 10
243.938107
 20
102.358731
 30
0.0
 11
245.938107
 21
102.358731
 31
0.0
  0
ARC
  8
0
 10
258.215711
 20
106.358731
 30
0.0
 40
4.0
 50
270.0
 51
90.0
  0
LINE
  8
0
 10
252.438015
 20
106.358731
 30
0.0
 11
262.215711
 21
106.358731
 31
0.0
  0
LINE
  8
0
 10
236.16041
 20
106.358731
 30
0.0
 11
245.938107
 21
106.358731
 31
0.0
  0
TEXT
  8
0
 10
237.445889
 20
91.757556
 30
0.0
 40
4.5
  1
CAPS
  0
ARC
  8
0
 10
258.215711
 20
55.046158
 30
0.0
 40
4.0
 50
0.0
 51
180.0
  0
LINE
  8
0
 10
233.437349
 20
55.046158
 30
0.0
 11
254.215711
 21
55.046158
 31
0.0
  0
LINE
  8
0
 10
253.359458
 20
58.046158
 30
0.0
 11
253.359458
 21
52.046158
 31
0.0
  0
LINE
  8
0
 10
263.071965
 20
58.046158
 30
0.0
 11
263.071965
 21
52.046158
 31
0.0
  0
LINE
  8
0
 10
282.994074
 20
55.046158
 30
0.0
 11
262.215711
 21
55.046158
 31
0.0
  0
TEXT
  8
0
 10
243.422816
 20
43.132175
 30
0.0
 40
4.5
  1
CROSS OVER
  0
LINE
  8
0
 10
371.478118
 20
474.0
 30
0.0
 11
387.848013
 21
474.0
 31
0.0
  0
LINE
  8
0
 10
404.924373
 20
478.0
 30
0.0
 11
404.924373
 21
470.0
 31
0.0
  0
LINE
  8
0
 10
406.924373
 20
478.0
 30
0.0
 11
406.924373
 21
470.0
 31
0.0
  0
LINE
  8
0
 10
385.848013
 20
478.0
 30
0.0
 11
385.848013
 21
470.0
 31
0.0
  0
LINE
  8
0
 10
387.848013
 20
478.0
 30
0.0
 11
387.848013
 21
470.0
 31
0.0
  0
LINE
  8
0
 10
387.848013
 20
470.0
 30
0.0
 11
404.924373
 21
474.0
 31
0.0
  0
LINE
  8
0
 10
404.924373
 20
474.0
 30
0.0
 11
387.848013
 21
478.0
 31
0.0
  0
LINE
  8
0
 10
404.924373
 20
474.0
 30
0.0
 11
419.478118
 21
474.0
 31
0.0
  0
TEXT
  8
0
 10
369.560886
 20
450.159516
 30
0.0
 40
4.5
  1
CONCENTRIC REDUCER
  0
LINE
  8
0
 10
404.924373
 20
425.173537
 30
0.0
 11
419.478118
 21
425.173537
 31
0.0
  0
LINE
  8
0
 10
404.924373
 20
424.277806
 30
0.0
 11
387.848013
 21
428.277806
 31
0.0
  0
LINE
  8
0
 10
387.848013
 20
428.277806
 30
0.0
 11
387.848013
 21
421.46602
 31
0.0
  0
LINE
  8
0
 10
385.848013
 20
429.173537
 30
0.0
 11
385.848013
 21
421.173537
 31
0.0
  0
LINE
  8
0
 10
406.924373
 20
429.173537
 30
0.0
 11
406.924373
 21
421.173537
 31
0.0
  0
LINE
  8
0
 10
404.924373
 20
429.173537
 30
0.0
 11
404.924373
 21
421.46602
 31
0.0
  0
LINE
  8
0
 10
371.478118
 20
425.173537
 30
0.0
 11
387.848013
 21
425.173537
 31
0.0
  0
LINE
  8
0
 10
387.848013
 20
421.46602
 30
0.0
 11
404.924373
 21
421.46602
 31
0.0
  0
TEXT
  8
0
 10
369.560886
 20
409.51237
 30
0.0
 40
4.5
  1
ECCENTRIC REDUCER
  0
LINE
  8
0
 10
497.454
 20
528.0
 30
0.0
 11
497.454
 21
0.0
 31
0.0
  0
ENDSEC
  0
EOF
